Ratio: 0 / 5

Inicio desactivadoInicio desactivadoInicio desactivadoInicio desactivadoInicio desactivado
 

IMG 20160731 114552Formación del Sistema Mundial de Socorro ... Pladesemapesga prepara una batería de preguntas dirigidas al Director General de la Marina Mercante, para desvelar la familiarización de los titulares de los Certificados GMDSS ... el elevado número de alumnos aptos en el sector pesquero desvela el fraude en la formacion.

RESPUESTA A PREGUNTA ESCRITA NÚM. 10975 PARLAMENTO DE GALICIA.

PUBLICADA EN EL BOPG NÚM. 184 DE 23 DE AGOSTO DE 2006.

CURSOS DEL SISTEMA MUNDIAL DE SOCORRO, REALIZADOS EN GALICIA DESDE 2002.

 IPMP DO ATLÁNTICO EN VIGO

 ( NÁUTICO PESQUERA )

AÑO     --- ALUMNOS      --- APROBADOS ---           NÚM. CURSOS

2006 -------- 49 ---------------- 49 ----------------------- 5 ----------------

2005   ------ 46 -----------------42 ------------------------5-----------------

2004 ---------73 ---------------- 69 ------------------------8-----------------

2003 ---------81 -----------------74 ----------------------- 9 ----------------

2002 -------- 120 ---------------  108 ---------------------- 14 ---------------

TOTAL------   369----------------    342-----------------------     41----------------

PROSORES : 3

TITULACIONES :

OFICIAL RADIOTELEGRAFISTA DE 1 ª CLASE DE LA MARINA MERCANTE.

PILOTO DE LA MARINA MERCANTE DE 1 ª CLASE.

OFICIAL RADIOTELEGRAFISTA DE 1 ª CLASE DE LA MARINA MERCANTE.

 FONP DE FERROL

2006 ------------------41------------40----------------4

2005 ------------------63------------59----------------4

2004 ------------------66------------65----------------3

2003-------------------38------------38----------------2

2002-------------------20------------18----------------1

TOTAL------------- 228-----------220--------------14

PROFESORES : 3 :

CAPITAN MARINA MERCANTE.

OFICIAL RADIOELECTÓNICO MARINA MERCANTE 1 ª CLASE.

CAPITAN MARINA MERCANTE Y PESCA.

 CONVENIO AETINAPE

2006---------------11------------------11--------------1

2005-------------------------------------------------------

2004---------------12------------------12--------------1

2003---------------42------------------41--------------4

2002-------------------------------------------------------

TOTAL : ---------65------------------64------------- 6

PROFESORES : 3

OFICIAL RADIOELECTRÓNICO DE 1 ª CLASE MARINA MERCANTE.

OFICIAL RADIOELECTRÓNICO DE 1 ª CLASE MARINA MERCANTE.

OFICIAL RADIOELECTRÓNICO DE 1 ª CLASE MARINA MERCANTE.

FDO :

DIRECTOR GENERAL RELACIONES PARLAMENTARIAS.

SANTIAGO DE COMPOSTELA, A 4 DE OCTUBRE DE 2006.

 Buscador Grupo Pladesemapesga con tecnología de Google

En el motor de búsqueda te ayudamos a encontrar exactamente lo que buscas.

 AyTP Acción y Transparencia Publica..
Otros articulos relacionados.....

Indecencia y falta de ética política de  las mareas bajo @XulioFerreiro + y @martinhonoriega +